ISO-10303-21;
HEADER;
FILE_DESCRIPTION (( 'STEP AP203' ),
    '1' );
FILE_NAME ('Q-AZHWP-20-632.8-M.STEP',
    '2020-12-22T09:08:48',
    ( '' ),
    ( '' ),
    'SwSTEP 2.0',
    'SolidWorks 2020',
    '' );
FILE_SCHEMA (( 'CONFIG_CONTROL_DESIGN' ));
ENDSEC;

DATA;
#1 = EDGE_CURVE ( 'NONE', #120, #191, #46, .T. ) ;
#2 = DIRECTION ( 'NONE',  ( 0.000000000000000000, 0.000000000000000000, 1.000000000000000000 ) ) ;
#3 = DIRECTION ( 'NONE',  ( -1.000000000000000000, -0.000000000000000000, -0.000000000000000000 ) ) ;
#4 = EDGE_CURVE ( 'NONE', #32, #92, #265, .T. ) ;
#5 = DIRECTION ( 'NONE',  ( -1.000000000000000000, -0.000000000000000000, -0.000000000000000000 ) ) ;
#6 = DIRECTION ( 'NONE',  ( 0.000000000000000000, 0.000000000000000000, 1.000000000000000000 ) ) ;
#7 = CLOSED_SHELL ( 'NONE', ( #297, #327, #269, #239, #110, #142, #143, #225, #149, #44 ) ) ;
#8 = PERSON_AND_ORGANIZATION_ROLE ( 'creator' ) ;
#9 = VERTEX_POINT ( 'NONE', #76 ) ;
#10 = APPROVAL_PERSON_ORGANIZATION ( #89, #47, #64 ) ;
#11 = PERSON_AND_ORGANIZATION ( #17, #165 ) ;
#12 = ORIENTED_EDGE ( 'NONE', *, *, #173, .T. ) ;
#13 = DATE_AND_TIME ( #86, #244 ) ;
#14 = SHAPE_DEFINITION_REPRESENTATION ( #51, #155 ) ;
#15 = ORIENTED_EDGE ( 'NONE', *, *, #101, .T. ) ;
#16 = AXIS2_PLACEMENT_3D ( 'NONE', #267, #290, #264 ) ;
#17 = PERSON ( 'UNSPECIFIED', 'UNSPECIFIED', 'UNSPECIFIED', ('UNSPECIFIED'), ('UNSPECIFIED'), ('UNSPECIFIED') ) ;
#18 = CARTESIAN_POINT ( 'NONE',  ( -3.000000000000000000, 10.00000000000000000, 0.000000000000000000 ) ) ;
#19 = AXIS2_PLACEMENT_3D ( 'NONE', #200, #172, #24 ) ;
#20 = CARTESIAN_POINT ( 'NONE',  ( 2.999999999999999112, 0.000000000000000000, 10.00000000000000000 ) ) ;
#21 = VECTOR ( 'NONE', #129, 1000.000000000000000 ) ;
#22 = CARTESIAN_POINT ( 'NONE',  ( -2.500000000000000444, 10.00000000000000000, 0.000000000000000000 ) ) ;
#23 = FACE_OUTER_BOUND ( 'NONE', #148, .T. ) ;
#24 = DIRECTION ( 'NONE',  ( 0.000000000000000000, 0.000000000000000000, 1.000000000000000000 ) ) ;
#25 = APPROVAL_PERSON_ORGANIZATION ( #219, #301, #38 ) ;
#26 = CARTESIAN_POINT ( 'NONE',  ( 2.999999999999999112, 0.000000000000000000, 0.000000000000000000 ) ) ;
#27 = DIRECTION ( 'NONE',  ( 0.000000000000000000, 0.000000000000000000, -1.000000000000000000 ) ) ;
#28 = CARTESIAN_POINT ( 'NONE',  ( -3.000000000000000444, 0.000000000000000000, 10.00000000000000000 ) ) ;
#29 = LINE ( 'NONE', #183, #77 ) ;
#30 = AXIS2_PLACEMENT_3D ( 'NONE', #174, #331, #53 ) ;
#31 = MECHANICAL_CONTEXT ( 'NONE', #68, 'mechanical' ) ;
#32 = VERTEX_POINT ( 'NONE', #280 ) ;
#33 = DATE_TIME_ROLE ( 'creation_date' ) ;
#34 = EDGE_CURVE ( 'NONE', #303, #321, #296, .T. ) ;
#35 = ORIENTED_EDGE ( 'NONE', *, *, #202, .T. ) ;
#36 = PERSON_AND_ORGANIZATION_ROLE ( 'creator' ) ;
#37 = VERTEX_POINT ( 'NONE', #128 ) ;
#38 = APPROVAL_ROLE ( '' ) ;
#39 = ORIENTED_EDGE ( 'NONE', *, *, #185, .F. ) ;
#40 = PERSON_AND_ORGANIZATION ( #17, #165 ) ;
#41 = ORIENTED_EDGE ( 'NONE', *, *, #202, .F. ) ;
#42 = AXIS2_PLACEMENT_3D ( 'NONE', #60, #160, #6 ) ;
#43 = CARTESIAN_POINT ( 'NONE',  ( 2.999999999999999112, 12.69999999999999929, 0.000000000000000000 ) ) ;
#44 = ADVANCED_FACE ( 'NONE', ( #330 ), #74, .F. ) ;
#45 = FACE_OUTER_BOUND ( 'NONE', #295, .T. ) ;
#46 = CIRCLE ( 'NONE', #80, 10.00000000000000000 ) ;
#47 = APPROVAL ( #294, 'UNSPECIFIED' ) ;
#48 = CYLINDRICAL_SURFACE ( 'NONE', #312, 10.00000000000000000 ) ;
#49 = APPLICATION_CONTEXT ( 'configuration controlled 3d designs of mechanical parts and assemblies' ) ;
#50 = CYLINDRICAL_SURFACE ( 'NONE', #19, 10.00000000000000000 ) ;
#51 = PRODUCT_DEFINITION_SHAPE ( 'NONE', 'NONE',  #208 ) ;
#52 = EDGE_CURVE ( 'NONE', #92, #32, #233, .T. ) ;
#53 = DIRECTION ( 'NONE',  ( 0.000000000000000000, 0.000000000000000000, 1.000000000000000000 ) ) ;
#54 =( LENGTH_UNIT ( ) NAMED_UNIT ( * ) SI_UNIT ( .MILLI., .METRE. ) );
#55 = AXIS2_PLACEMENT_3D ( 'NONE', #154, #262, #27 ) ;
#56 = CARTESIAN_POINT ( 'NONE',  ( -3.000000000000000444, 1.224646799147353256E-15, -10.00000000000000000 ) ) ;
#57 = CYLINDRICAL_SURFACE ( 'NONE', #16, 12.69999999999999929 ) ;
#58 = CC_DESIGN_PERSON_AND_ORGANIZATION_ASSIGNMENT ( #11, #119, ( #153 ) ) ;
#59 = UNCERTAINTY_MEASURE_WITH_UNIT (LENGTH_MEASURE( 1.000000000000000082E-05 ), #54, 'distance_accuracy_value', 'NONE');
#60 = CARTESIAN_POINT ( 'NONE',  ( -1.614212418857619014, 0.000000000000000000, 0.000000000000000000 ) ) ;
#61 = AXIS2_PLACEMENT_3D ( 'NONE', #156, #5, #314 ) ;
#62 = PERSON_AND_ORGANIZATION ( #17, #165 ) ;
#63 = ORIENTED_EDGE ( 'NONE', *, *, #185, .T. ) ;
#64 = APPROVAL_ROLE ( '' ) ;
#65 = AXIS2_PLACEMENT_3D ( 'NONE', #245, #166, #121 ) ;
#66 = ORIENTED_EDGE ( 'NONE', *, *, #263, .T. ) ;
#67 = CALENDAR_DATE ( 2020, 22, 12 ) ;
#68 = APPLICATION_CONTEXT ( 'configuration controlled 3d designs of mechanical parts and assemblies' ) ;
#69 = EDGE_LOOP ( 'NONE', ( #224, #171, #15, #198 ) ) ;
#70 = ORIENTED_EDGE ( 'NONE', *, *, #238, .T. ) ;
#71 = EDGE_LOOP ( 'NONE', ( #115, #35, #66, #275 ) ) ;
#72 = LOCAL_TIME ( 17, 8, 48.00000000000000000, #192 ) ;
#73 = FACE_BOUND ( 'NONE', #324, .T. ) ;
#74 = PLANE ( 'NONE',  #308 ) ;
#75 = CC_DESIGN_DATE_AND_TIME_ASSIGNMENT ( #162, #139, ( #282 ) ) ;
#76 = CARTESIAN_POINT ( 'NONE',  ( 2.500000000000000888, 1.224646799147353256E-15, -10.00000000000000000 ) ) ;
#77 = VECTOR ( 'NONE', #211, 1000.000000000000000 ) ;
#78 = CARTESIAN_POINT ( 'NONE',  ( -3.000000000000000444, 0.000000000000000000, 0.000000000000000000 ) ) ;
#79 = CARTESIAN_POINT ( 'NONE',  ( 2.500000000000000888, 0.000000000000000000, 0.000000000000000000 ) ) ;
#80 = AXIS2_PLACEMENT_3D ( 'NONE', #229, #329, #284 ) ;
#81 = LINE ( 'NONE', #130, #266 ) ;
#82 = EDGE_CURVE ( 'NONE', #191, #321, #203, .T. ) ;
#83 = PLANE ( 'NONE',  #250 ) ;
#84 = CYLINDRICAL_SURFACE ( 'NONE', #292, 10.00000000000000000 ) ;
#85 = CARTESIAN_POINT ( 'NONE',  ( 3.000000000000000000, 0.000000000000000000, 0.000000000000000000 ) ) ;
#86 = CALENDAR_DATE ( 2020, 22, 12 ) ;
#87 = CIRCLE ( 'NONE', #55, 10.00000000000000000 ) ;
#88 = EDGE_LOOP ( 'NONE', ( #246, #95 ) ) ;
#89 = PERSON_AND_ORGANIZATION ( #17, #165 ) ;
#90 = ORIENTED_EDGE ( 'NONE', *, *, #328, .F. ) ;
#91 = APPROVAL_ROLE ( '' ) ;
#92 = VERTEX_POINT ( 'NONE', #103 ) ;
#93 = PERSON_AND_ORGANIZATION_ROLE ( 'design_owner' ) ;
#94 = ORIENTED_EDGE ( 'NONE', *, *, #34, .F. ) ;
#95 = ORIENTED_EDGE ( 'NONE', *, *, #263, .F. ) ;
#96 = CIRCLE ( 'NONE', #281, 12.69999999999999929 ) ;
#97 = DIRECTION ( 'NONE',  ( -1.000000000000000000, -0.000000000000000000, -0.000000000000000000 ) ) ;
#98 = LOCAL_TIME ( 17, 8, 48.00000000000000000, #323 ) ;
#99 = LOCAL_TIME ( 17, 8, 48.00000000000000000, #197 ) ;
#100 = ORIENTED_EDGE ( 'NONE', *, *, #4, .T. ) ;
#101 = EDGE_CURVE ( 'NONE', #321, #303, #157, .T. ) ;
#102 = EDGE_CURVE ( 'NONE', #220, #249, #96, .T. ) ;
#103 = CARTESIAN_POINT ( 'NONE',  ( -3.000000000000000000, 0.000000000000000000, 12.69999999999999929 ) ) ;
#104 = CARTESIAN_POINT ( 'NONE',  ( 3.000000000000000000, 0.000000000000000000, 0.000000000000000000 ) ) ;
#105 = DIRECTION ( 'NONE',  ( -1.000000000000000000, -0.000000000000000000, -0.000000000000000000 ) ) ;
#106 = CC_DESIGN_PERSON_AND_ORGANIZATION_ASSIGNMENT ( #40, #293, ( #282 ) ) ;
#107 = DIRECTION ( 'NONE',  ( -1.000000000000000000, 0.000000000000000000, -0.000000000000000000 ) ) ;
#108 = CC_DESIGN_APPROVAL ( #117, ( #282 ) ) ;
#109 = FACE_OUTER_BOUND ( 'NONE', #226, .T. ) ;
#110 = ADVANCED_FACE ( 'NONE', ( #177 ), #48, .F. ) ;
#111 = CYLINDRICAL_SURFACE ( 'NONE', #206, 12.69999999999999929 ) ;
#112 = DIRECTION ( 'NONE',  ( -1.000000000000000000, -0.000000000000000000, -0.000000000000000000 ) ) ;
#113 = DATE_AND_TIME ( #195, #99 ) ;
#114 = AXIS2_PLACEMENT_3D ( 'NONE', #145, #253, #158 ) ;
#115 = ORIENTED_EDGE ( 'NONE', *, *, #238, .F. ) ;
#116 = MANIFOLD_SOLID_BREP ( 'Ðý×', #7 ) ;
#117 = APPROVAL ( #247, 'UNSPECIFIED' ) ;
#118 = VERTEX_POINT ( 'NONE', #20 ) ;
#119 = PERSON_AND_ORGANIZATION_ROLE ( 'design_supplier' ) ;
#120 = VERTEX_POINT ( 'NONE', #283 ) ;
#121 = DIRECTION ( 'NONE',  ( 1.000000000000000000, 0.000000000000000000, 0.000000000000000000 ) ) ;
#122 = ORIENTED_EDGE ( 'NONE', *, *, #52, .T. ) ;
#123 = ORIENTED_EDGE ( 'NONE', *, *, #102, .F. ) ;
#124 = VECTOR ( 'NONE', #175, 1000.000000000000000 ) ;
#125 = CARTESIAN_POINT ( 'NONE',  ( -3.000000000000000000, 0.000000000000000000, 0.000000000000000000 ) ) ;
#126 = LINE ( 'NONE', #231, #188 ) ;
#127 = CARTESIAN_POINT ( 'NONE',  ( -1.614212418857619014, 1.224646799147353256E-15, -10.00000000000000000 ) ) ;
#128 = CARTESIAN_POINT ( 'NONE',  ( 2.500000000000000888, 0.000000000000000000, 10.00000000000000000 ) ) ;
#129 = DIRECTION ( 'NONE',  ( -1.000000000000000000, -0.000000000000000000, -0.000000000000000000 ) ) ;
#130 = CARTESIAN_POINT ( 'NONE',  ( -1.614212418857619014, 0.000000000000000000, 12.69999999999999929 ) ) ;
#131 = CARTESIAN_POINT ( 'NONE',  ( -1.614212418857619014, 0.000000000000000000, 0.000000000000000000 ) ) ;
#132 = LINE ( 'NONE', #237, #277 ) ;
#133 = CARTESIAN_POINT ( 'NONE',  ( 2.500000000000000444, 10.00000000000000000, 0.000000000000000000 ) ) ;
#134 = DATE_AND_TIME ( #217, #72 ) ;
#135 = EDGE_LOOP ( 'NONE', ( #94, #140 ) ) ;
#136 = LOCAL_TIME ( 17, 8, 48.00000000000000000, #302 ) ;
#137 = APPLICATION_PROTOCOL_DEFINITION ( 'international standard', 'config_control_design', 1994, #49 ) ;
#138 = ORIENTED_EDGE ( 'NONE', *, *, #161, .T. ) ;
#139 = DATE_TIME_ROLE ( 'classification_date' ) ;
#140 = ORIENTED_EDGE ( 'NONE', *, *, #101, .F. ) ;
#141 = ORIENTED_EDGE ( 'NONE', *, *, #304, .T. ) ;
#142 = ADVANCED_FACE ( 'NONE', ( #45 ), #50, .F. ) ;
#143 = ADVANCED_FACE ( 'NONE', ( #258, #227 ), #332, .F. ) ;
#144 = CALENDAR_DATE ( 2020, 22, 12 ) ;
#145 = CARTESIAN_POINT ( 'NONE',  ( 2.500000000000000888, 0.000000000000000000, 0.000000000000000000 ) ) ;
#146 = CARTESIAN_POINT ( 'NONE',  ( -1.614212418857619014, 0.000000000000000000, 10.00000000000000000 ) ) ;
#147 = AXIS2_PLACEMENT_3D ( 'NONE', #78, #310, #254 ) ;
#148 = EDGE_LOOP ( 'NONE', ( #123, #319 ) ) ;
#149 = ADVANCED_FACE ( 'NONE', ( #23, #73 ), #230, .F. ) ;
#150 = CARTESIAN_POINT ( 'NONE',  ( -3.000000000000000000, 0.000000000000000000, 0.000000000000000000 ) ) ;
#151 = DIRECTION ( 'NONE',  ( -0.000000000000000000, 0.000000000000000000, 1.000000000000000000 ) ) ;
#152 = DIRECTION ( 'NONE',  ( 0.000000000000000000, 0.000000000000000000, 1.000000000000000000 ) ) ;
#153 = PRODUCT_DEFINITION_FORMATION_WITH_SPECIFIED_SOURCE ( 'ANY', '', #257, .NOT_KNOWN. ) ;
#154 = CARTESIAN_POINT ( 'NONE',  ( -2.500000000000000444, 0.000000000000000000, 0.000000000000000000 ) ) ;
#155 = ADVANCED_BREP_SHAPE_REPRESENTATION ( 'Q-AZHWP-20-632.8-M', ( #116, #65 ), #318 ) ;
#156 = CARTESIAN_POINT ( 'NONE',  ( 2.999999999999999112, 0.000000000000000000, 0.000000000000000000 ) ) ;
#157 = CIRCLE ( 'NONE', #147, 10.00000000000000000 ) ;
#158 = DIRECTION ( 'NONE',  ( 0.000000000000000000, 0.000000000000000000, 1.000000000000000000 ) ) ;
#159 = AXIS2_PLACEMENT_3D ( 'NONE', #79, #209, #316 ) ;
#160 = DIRECTION ( 'NONE',  ( -1.000000000000000000, -0.000000000000000000, -0.000000000000000000 ) ) ;
#161 = EDGE_CURVE ( 'NONE', #118, #37, #207, .T. ) ;
#162 = DATE_AND_TIME ( #144, #98 ) ;
#163 = ORIENTED_EDGE ( 'NONE', *, *, #205, .F. ) ;
#164 = CC_DESIGN_PERSON_AND_ORGANIZATION_ASSIGNMENT ( #62, #93, ( #257 ) ) ;
#165 = ORGANIZATION ( 'UNSPECIFIED', 'UNSPECIFIED', '' ) ;
#166 = DIRECTION ( 'NONE',  ( 0.000000000000000000, 0.000000000000000000, 1.000000000000000000 ) ) ;
#167 = ORIENTED_EDGE ( 'NONE', *, *, #102, .T. ) ;
#168 = DATE_AND_TIME ( #67, #136 ) ;
#169 = ORIENTED_EDGE ( 'NONE', *, *, #34, .T. ) ;
#170 = EDGE_CURVE ( 'NONE', #120, #303, #126, .T. ) ;
#171 = ORIENTED_EDGE ( 'NONE', *, *, #82, .T. ) ;
#172 = DIRECTION ( 'NONE',  ( -1.000000000000000000, -0.000000000000000000, -0.000000000000000000 ) ) ;
#173 = EDGE_CURVE ( 'NONE', #37, #9, #315, .T. ) ;
#174 = CARTESIAN_POINT ( 'NONE',  ( -3.000000000000000444, 0.000000000000000000, 0.000000000000000000 ) ) ;
#175 = DIRECTION ( 'NONE',  ( -1.000000000000000000, -0.000000000000000000, -0.000000000000000000 ) ) ;
#176 = CC_DESIGN_DATE_AND_TIME_ASSIGNMENT ( #13, #33, ( #208 ) ) ;
#177 = FACE_OUTER_BOUND ( 'NONE', #194, .T. ) ;
#178 = DIRECTION ( 'NONE',  ( -1.000000000000000000, 0.000000000000000000, -0.000000000000000000 ) ) ;
#179 = EDGE_CURVE ( 'NONE', #249, #32, #29, .T. ) ;
#180 = DIRECTION ( 'NONE',  ( 0.000000000000000000, 0.000000000000000000, 1.000000000000000000 ) ) ;
#181 = CARTESIAN_POINT ( 'NONE',  ( 3.000000000000000000, 0.000000000000000000, 12.69999999999999929 ) ) ;
#182 = CC_DESIGN_SECURITY_CLASSIFICATION ( #282, ( #153 ) ) ;
#183 = CARTESIAN_POINT ( 'NONE',  ( -1.614212418857619014, 1.555301434917138433E-15, -12.69999999999999929 ) ) ;
#184 =( NAMED_UNIT ( * ) PLANE_ANGLE_UNIT ( ) SI_UNIT ( $, .RADIAN. ) );
#185 = EDGE_CURVE ( 'NONE', #220, #92, #81, .T. ) ;
#186 = DIRECTION ( 'NONE',  ( -1.000000000000000000, -0.000000000000000000, -0.000000000000000000 ) ) ;
#187 = AXIS2_PLACEMENT_3D ( 'NONE', #43, #178, #151 ) ;
#188 = VECTOR ( 'NONE', #311, 1000.000000000000000 ) ;
#189 = APPROVAL_DATE_TIME ( #113, #47 ) ;
#190 = APPROVAL_STATUS ( 'not_yet_approved' ) ;
#191 = VERTEX_POINT ( 'NONE', #232 ) ;
#192 = COORDINATED_UNIVERSAL_TIME_OFFSET ( 8, 0, .AHEAD. ) ;
#193 = AXIS2_PLACEMENT_3D ( 'NONE', #150, #97, #201 ) ;
#194 = EDGE_LOOP ( 'NONE', ( #41, #163, #138, #12 ) ) ;
#195 = CALENDAR_DATE ( 2020, 22, 12 ) ;
#196 = ORIENTED_EDGE ( 'NONE', *, *, #4, .F. ) ;
#197 = COORDINATED_UNIVERSAL_TIME_OFFSET ( 8, 0, .AHEAD. ) ;
#198 = ORIENTED_EDGE ( 'NONE', *, *, #170, .F. ) ;
#199 = AXIS2_PLACEMENT_3D ( 'NONE', #26, #286, #2 ) ;
#200 = CARTESIAN_POINT ( 'NONE',  ( -1.614212418857619014, 0.000000000000000000, 0.000000000000000000 ) ) ;
#201 = DIRECTION ( 'NONE',  ( 0.000000000000000000, 0.000000000000000000, 1.000000000000000000 ) ) ;
#202 = EDGE_CURVE ( 'NONE', #243, #9, #132, .T. ) ;
#203 = LINE ( 'NONE', #127, #124 ) ;
#204 = DIRECTION ( 'NONE',  ( 0.000000000000000000, 0.000000000000000000, 1.000000000000000000 ) ) ;
#205 = EDGE_CURVE ( 'NONE', #118, #243, #261, .T. ) ;
#206 = AXIS2_PLACEMENT_3D ( 'NONE', #131, #335, #291 ) ;
#207 = LINE ( 'NONE', #146, #21 ) ;
#208 = PRODUCT_DEFINITION ( 'UNKNOWN', '', #153, #216 ) ;
#209 = DIRECTION ( 'NONE',  ( -1.000000000000000000, -0.000000000000000000, -0.000000000000000000 ) ) ;
#210 = AXIS2_PLACEMENT_3D ( 'NONE', #18, #306, #279 ) ;
#211 = DIRECTION ( 'NONE',  ( -1.000000000000000000, -0.000000000000000000, -0.000000000000000000 ) ) ;
#212 = PRODUCT_RELATED_PRODUCT_CATEGORY ( 'detail', '', ( #257 ) ) ;
#213 = CARTESIAN_POINT ( 'NONE',  ( 3.000000000000000000, 1.555301434917138433E-15, -12.69999999999999929 ) ) ;
#214 = FACE_OUTER_BOUND ( 'NONE', #88, .T. ) ;
#215 = CARTESIAN_POINT ( 'NONE',  ( -1.614212418857619014, 0.000000000000000000, 0.000000000000000000 ) ) ;
#216 = DESIGN_CONTEXT ( 'detailed design', #49, 'design' ) ;
#217 = CALENDAR_DATE ( 2020, 22, 12 ) ;
#218 = ORIENTED_EDGE ( 'NONE', *, *, #179, .F. ) ;
#219 = PERSON_AND_ORGANIZATION ( #17, #165 ) ;
#220 = VERTEX_POINT ( 'NONE', #181 ) ;
#221 = ORIENTED_EDGE ( 'NONE', *, *, #170, .T. ) ;
#222 = APPROVAL_PERSON_ORGANIZATION ( #251, #117, #91 ) ;
#223 = SECURITY_CLASSIFICATION_LEVEL ( 'unclassified' ) ;
#224 = ORIENTED_EDGE ( 'NONE', *, *, #1, .T. ) ;
#225 = ADVANCED_FACE ( 'NONE', ( #109 ), #111, .T. ) ;
#226 = EDGE_LOOP ( 'NONE', ( #218, #141, #63, #196 ) ) ;
#227 = FACE_OUTER_BOUND ( 'NONE', #305, .T. ) ;
#228 = DIRECTION ( 'NONE',  ( 0.000000000000000000, 0.000000000000000000, -1.000000000000000000 ) ) ;
#229 = CARTESIAN_POINT ( 'NONE',  ( -2.500000000000000444, 0.000000000000000000, 0.000000000000000000 ) ) ;
#230 = PLANE ( 'NONE',  #187 ) ;
#231 = CARTESIAN_POINT ( 'NONE',  ( -1.614212418857619014, 0.000000000000000000, 10.00000000000000000 ) ) ;
#232 = CARTESIAN_POINT ( 'NONE',  ( -2.500000000000000444, 1.224646799147353256E-15, -10.00000000000000000 ) ) ;
#233 = CIRCLE ( 'NONE', #241, 12.69999999999999929 ) ;
#234 = FACE_OUTER_BOUND ( 'NONE', #69, .T. ) ;
#235 = CC_DESIGN_PERSON_AND_ORGANIZATION_ASSIGNMENT ( #242, #8, ( #208 ) ) ;
#236 = CIRCLE ( 'NONE', #300, 12.69999999999999929 ) ;
#237 = CARTESIAN_POINT ( 'NONE',  ( -1.614212418857619014, 1.224646799147353256E-15, -10.00000000000000000 ) ) ;
#238 = EDGE_CURVE ( 'NONE', #243, #118, #287, .T. ) ;
#239 = ADVANCED_FACE ( 'NONE', ( #214 ), #83, .F. ) ;
#240 = CARTESIAN_POINT ( 'NONE',  ( 2.999999999999999112, 1.224646799147353256E-15, -10.00000000000000000 ) ) ;
#241 = AXIS2_PLACEMENT_3D ( 'NONE', #125, #307, #204 ) ;
#242 = PERSON_AND_ORGANIZATION ( #17, #165 ) ;
#243 = VERTEX_POINT ( 'NONE', #240 ) ;
#244 = LOCAL_TIME ( 17, 8, 48.00000000000000000, #272 ) ;
#245 = CARTESIAN_POINT ( 'NONE',  ( 0.000000000000000000, 0.000000000000000000, 0.000000000000000000 ) ) ;
#246 = ORIENTED_EDGE ( 'NONE', *, *, #173, .F. ) ;
#247 = APPROVAL_STATUS ( 'not_yet_approved' ) ;
#248 = PERSON_AND_ORGANIZATION ( #17, #165 ) ;
#249 = VERTEX_POINT ( 'NONE', #213 ) ;
#250 = AXIS2_PLACEMENT_3D ( 'NONE', #133, #107, #317 ) ;
#251 = PERSON_AND_ORGANIZATION ( #17, #165 ) ;
#252 = ORIENTED_EDGE ( 'NONE', *, *, #179, .T. ) ;
#253 = DIRECTION ( 'NONE',  ( -1.000000000000000000, -0.000000000000000000, -0.000000000000000000 ) ) ;
#254 = DIRECTION ( 'NONE',  ( 0.000000000000000000, 0.000000000000000000, 1.000000000000000000 ) ) ;
#255 = CC_DESIGN_APPROVAL ( #301, ( #208 ) ) ;
#256 = DIRECTION ( 'NONE',  ( 0.000000000000000000, 0.000000000000000000, 1.000000000000000000 ) ) ;
#257 = PRODUCT ( 'Q-AZHWP-20-632.8-M', 'Q-AZHWP-20-632.8-M', '', ( #31 ) ) ;
#258 = FACE_BOUND ( 'NONE', #135, .T. ) ;
#259 = CARTESIAN_POINT ( 'NONE',  ( -1.614212418857619014, 0.000000000000000000, 0.000000000000000000 ) ) ;
#260 = FACE_OUTER_BOUND ( 'NONE', #71, .T. ) ;
#261 = CIRCLE ( 'NONE', #61, 10.00000000000000000 ) ;
#262 = DIRECTION ( 'NONE',  ( 1.000000000000000000, 0.000000000000000000, 0.000000000000000000 ) ) ;
#263 = EDGE_CURVE ( 'NONE', #9, #37, #333, .T. ) ;
#264 = DIRECTION ( 'NONE',  ( 0.000000000000000000, 0.000000000000000000, 1.000000000000000000 ) ) ;
#265 = CIRCLE ( 'NONE', #193, 12.69999999999999929 ) ;
#266 = VECTOR ( 'NONE', #186, 1000.000000000000000 ) ;
#267 = CARTESIAN_POINT ( 'NONE',  ( -1.614212418857619014, 0.000000000000000000, 0.000000000000000000 ) ) ;
#268 = ORIENTED_EDGE ( 'NONE', *, *, #328, .T. ) ;
#269 = ADVANCED_FACE ( 'NONE', ( #260 ), #289, .F. ) ;
#270 =( NAMED_UNIT ( * ) SI_UNIT ( $, .STERADIAN. ) SOLID_ANGLE_UNIT ( ) );
#271 = EDGE_LOOP ( 'NONE', ( #326, #90 ) ) ;
#272 = COORDINATED_UNIVERSAL_TIME_OFFSET ( 8, 0, .AHEAD. ) ;
#273 = EDGE_LOOP ( 'NONE', ( #167, #252, #299, #39 ) ) ;
#274 = APPROVAL_DATE_TIME ( #168, #117 ) ;
#275 = ORIENTED_EDGE ( 'NONE', *, *, #161, .F. ) ;
#276 = ORIENTED_EDGE ( 'NONE', *, *, #205, .T. ) ;
#277 = VECTOR ( 'NONE', #313, 1000.000000000000000 ) ;
#278 = DIRECTION ( 'NONE',  ( 1.000000000000000000, 0.000000000000000000, 0.000000000000000000 ) ) ;
#279 = DIRECTION ( 'NONE',  ( 0.000000000000000000, 0.000000000000000000, -1.000000000000000000 ) ) ;
#280 = CARTESIAN_POINT ( 'NONE',  ( -3.000000000000000000, 1.555301434917138433E-15, -12.69999999999999929 ) ) ;
#281 = AXIS2_PLACEMENT_3D ( 'NONE', #104, #334, #309 ) ;
#282 = SECURITY_CLASSIFICATION ( '', '', #223 ) ;
#283 = CARTESIAN_POINT ( 'NONE',  ( -2.500000000000000444, 0.000000000000000000, 10.00000000000000000 ) ) ;
#284 = DIRECTION ( 'NONE',  ( 0.000000000000000000, 0.000000000000000000, -1.000000000000000000 ) ) ;
#285 = FACE_OUTER_BOUND ( 'NONE', #273, .T. ) ;
#286 = DIRECTION ( 'NONE',  ( -1.000000000000000000, -0.000000000000000000, -0.000000000000000000 ) ) ;
#287 = CIRCLE ( 'NONE', #199, 10.00000000000000000 ) ;
#288 = CC_DESIGN_APPROVAL ( #47, ( #153 ) ) ;
#289 = CYLINDRICAL_SURFACE ( 'NONE', #42, 10.00000000000000000 ) ;
#290 = DIRECTION ( 'NONE',  ( -1.000000000000000000, -0.000000000000000000, -0.000000000000000000 ) ) ;
#291 = DIRECTION ( 'NONE',  ( 0.000000000000000000, 0.000000000000000000, 1.000000000000000000 ) ) ;
#292 = AXIS2_PLACEMENT_3D ( 'NONE', #215, #3, #180 ) ;
#293 = PERSON_AND_ORGANIZATION_ROLE ( 'classification_officer' ) ;
#294 = APPROVAL_STATUS ( 'not_yet_approved' ) ;
#295 = EDGE_LOOP ( 'NONE', ( #325, #268, #221, #169 ) ) ;
#296 = CIRCLE ( 'NONE', #30, 10.00000000000000000 ) ;
#297 = ADVANCED_FACE ( 'NONE', ( #285 ), #57, .T. ) ;
#298 = APPLICATION_PROTOCOL_DEFINITION ( 'international standard', 'config_control_design', 1994, #68 ) ;
#299 = ORIENTED_EDGE ( 'NONE', *, *, #52, .F. ) ;
#300 = AXIS2_PLACEMENT_3D ( 'NONE', #85, #112, #152 ) ;
#301 = APPROVAL ( #190, 'UNSPECIFIED' ) ;
#302 = COORDINATED_UNIVERSAL_TIME_OFFSET ( 8, 0, .AHEAD. ) ;
#303 = VERTEX_POINT ( 'NONE', #28 ) ;
#304 = EDGE_CURVE ( 'NONE', #249, #220, #236, .T. ) ;
#305 = EDGE_LOOP ( 'NONE', ( #122, #100 ) ) ;
#306 = DIRECTION ( 'NONE',  ( 1.000000000000000000, 0.000000000000000000, 0.000000000000000000 ) ) ;
#307 = DIRECTION ( 'NONE',  ( -1.000000000000000000, -0.000000000000000000, -0.000000000000000000 ) ) ;
#308 = AXIS2_PLACEMENT_3D ( 'NONE', #22, #278, #228 ) ;
#309 = DIRECTION ( 'NONE',  ( 0.000000000000000000, 0.000000000000000000, 1.000000000000000000 ) ) ;
#310 = DIRECTION ( 'NONE',  ( -1.000000000000000000, -0.000000000000000000, -0.000000000000000000 ) ) ;
#311 = DIRECTION ( 'NONE',  ( -1.000000000000000000, -0.000000000000000000, -0.000000000000000000 ) ) ;
#312 = AXIS2_PLACEMENT_3D ( 'NONE', #259, #105, #256 ) ;
#313 = DIRECTION ( 'NONE',  ( -1.000000000000000000, -0.000000000000000000, -0.000000000000000000 ) ) ;
#314 = DIRECTION ( 'NONE',  ( 0.000000000000000000, 0.000000000000000000, 1.000000000000000000 ) ) ;
#315 = CIRCLE ( 'NONE', #114, 10.00000000000000000 ) ;
#316 = DIRECTION ( 'NONE',  ( 0.000000000000000000, 0.000000000000000000, 1.000000000000000000 ) ) ;
#317 = DIRECTION ( 'NONE',  ( -0.000000000000000000, 0.000000000000000000, 1.000000000000000000 ) ) ;
#318 =( GEOMETRIC_REPRESENTATION_CONTEXT ( 3 ) GLOBAL_UNCERTAINTY_ASSIGNED_CONTEXT ( ( #59 ) ) GLOBAL_UNIT_ASSIGNED_CONTEXT ( ( #54, #184, #270 ) ) REPRESENTATION_CONTEXT ( 'NONE', 'WORKASPACE' ) );
#319 = ORIENTED_EDGE ( 'NONE', *, *, #304, .F. ) ;
#320 = APPROVAL_DATE_TIME ( #134, #301 ) ;
#321 = VERTEX_POINT ( 'NONE', #56 ) ;
#322 = CC_DESIGN_PERSON_AND_ORGANIZATION_ASSIGNMENT ( #248, #36, ( #153 ) ) ;
#323 = COORDINATED_UNIVERSAL_TIME_OFFSET ( 8, 0, .AHEAD. ) ;
#324 = EDGE_LOOP ( 'NONE', ( #276, #70 ) ) ;
#325 = ORIENTED_EDGE ( 'NONE', *, *, #82, .F. ) ;
#326 = ORIENTED_EDGE ( 'NONE', *, *, #1, .F. ) ;
#327 = ADVANCED_FACE ( 'NONE', ( #234 ), #84, .F. ) ;
#328 = EDGE_CURVE ( 'NONE', #191, #120, #87, .T. ) ;
#329 = DIRECTION ( 'NONE',  ( 1.000000000000000000, 0.000000000000000000, 0.000000000000000000 ) ) ;
#330 = FACE_OUTER_BOUND ( 'NONE', #271, .T. ) ;
#331 = DIRECTION ( 'NONE',  ( -1.000000000000000000, -0.000000000000000000, -0.000000000000000000 ) ) ;
#332 = PLANE ( 'NONE',  #210 ) ;
#333 = CIRCLE ( 'NONE', #159, 10.00000000000000000 ) ;
#334 = DIRECTION ( 'NONE',  ( -1.000000000000000000, -0.000000000000000000, -0.000000000000000000 ) ) ;
#335 = DIRECTION ( 'NONE',  ( -1.000000000000000000, -0.000000000000000000, -0.000000000000000000 ) ) ;
ENDSEC;
END-ISO-10303-21;
